ISO-10303-21;
HEADER;
/* Generated by software containing ST-Developer
 * from STEP Tools, Inc. (www.steptools.com) 
 */

FILE_DESCRIPTION(
/* description */ ('',
'CAx-IF Rec.Pracs.---Representation and Presentation of Product Manufa
cturing Information (PMI)---4.0---2014-10-13'),
/* implementation_level */ '2;1');

FILE_NAME(
/* name */ 'BZMH125WPL.step',
/* time_stamp */ '2024-12-05T15:23:49Z',
/* author */ (''),
/* organization */ (''),
/* preprocessor_version */ 'ST-DEVELOPER v20',
/* originating_system */ 'Autodesk Translation Framework v13.20.0.188',

/* authorisation */ '');

FILE_SCHEMA (('AP242_MANAGED_MODEL_BASED_3D_ENGINEERING_MIM_LF { 1 0 10303 442 1 1 4 }'));
ENDSEC;

DATA;
#10=MECHANICAL_DESIGN_GEOMETRIC_PRESENTATION_REPRESENTATION('',(#17),#551);
#11=ITEM_DEFINED_TRANSFORMATION($,$,#286,#335);
#12=(
REPRESENTATION_RELATIONSHIP($,$,#562,#561)
REPRESENTATION_RELATIONSHIP_WITH_TRANSFORMATION(#11)
SHAPE_REPRESENTATION_RELATIONSHIP()
);
#13=CONTEXT_DEPENDENT_SHAPE_REPRESENTATION(#12,#560);
#14=NEXT_ASSEMBLY_USAGE_OCCURRENCE('BZMH125WPL:1','BZMH125WPL:1',
'BZMH125WPL:1',#564,#565,'BZMH125WPL:1');
#15=SHAPE_REPRESENTATION_RELATIONSHIP('SRR','None',#562,#16);
#16=ADVANCED_BREP_SHAPE_REPRESENTATION('',(#18),#550);
#17=STYLED_ITEM('',(#576),#18);
#18=MANIFOLD_SOLID_BREP('Body1',#272);
#19=(
BOUNDED_SURFACE()
B_SPLINE_SURFACE(2,2,((#502,#503,#504,#505,#506,#507,#508,#509,#510),(#511,
#512,#513,#514,#515,#516,#517,#518,#519),(#520,#521,#522,#523,#524,#525,
#526,#527,#528)),.UNSPECIFIED.,.F.,.T.,.F.)
B_SPLINE_SURFACE_WITH_KNOTS((3,3),(3,2,2,2,3),(-0.154345522238324,0.154345522255256),
(-3.14159265358979,-1.5707963267949,0.,1.5707963267949,3.14159265358979),
 .UNSPECIFIED.)
GEOMETRIC_REPRESENTATION_ITEM()
RATIONAL_B_SPLINE_SURFACE(((1.,0.707106781186548,1.,0.707106781186548,1.,
0.707106781186548,1.,0.707106781186548,1.),(0.988112357504583,0.698700948565717,
0.988112357504583,0.698700948565717,0.988112357504583,0.698700948565717,
0.988112357504583,0.698700948565717,0.988112357504583),(1.,0.707106781186548,
1.,0.707106781186548,1.,0.707106781186548,1.,0.707106781186548,1.)))
REPRESENTATION_ITEM('')
SURFACE()
);
#20=CYLINDRICAL_SURFACE('',#300,7.6);
#21=CYLINDRICAL_SURFACE('',#314,56.0000009089708);
#22=CYLINDRICAL_SURFACE('',#334,56.0000009089708);
#23=LINE('',#461,#28);
#24=LINE('',#467,#29);
#25=LINE('',#475,#30);
#26=LINE('',#489,#31);
#27=LINE('',#544,#32);
#28=VECTOR('',#362,18.2879516594911);
#29=VECTOR('',#369,7.6);
#30=VECTOR('',#380,18.2879516594911);
#31=VECTOR('',#399,56.0000009089708);
#32=VECTOR('',#440,56.0000009089708);
#33=CONICAL_SURFACE('',#296,18.2879516594911,0.104876938730234);
#34=CONICAL_SURFACE('',#304,18.2879516594911,0.104876938730234);
#35=FACE_BOUND('',#69,.T.);
#36=FACE_BOUND('',#73,.T.);
#37=FACE_BOUND('',#76,.T.);
#38=FACE_BOUND('',#80,.T.);
#39=FACE_BOUND('',#85,.T.);
#40=FACE_BOUND('',#90,.T.);
#41=PLANE('',#291);
#42=PLANE('',#298);
#43=PLANE('',#302);
#44=PLANE('',#309);
#45=PLANE('',#319);
#46=PLANE('',#329);
#47=FACE_OUTER_BOUND('',#67,.T.);
#48=FACE_OUTER_BOUND('',#68,.T.);
#49=FACE_OUTER_BOUND('',#70,.T.);
#50=FACE_OUTER_BOUND('',#71,.T.);
#51=FACE_OUTER_BOUND('',#72,.T.);
#52=FACE_OUTER_BOUND('',#74,.T.);
#53=FACE_OUTER_BOUND('',#75,.T.);
#54=FACE_OUTER_BOUND('',#77,.T.);
#55=FACE_OUTER_BOUND('',#78,.T.);
#56=FACE_OUTER_BOUND('',#79,.T.);
#57=FACE_OUTER_BOUND('',#81,.T.);
#58=FACE_OUTER_BOUND('',#82,.T.);
#59=FACE_OUTER_BOUND('',#83,.T.);
#60=FACE_OUTER_BOUND('',#84,.T.);
#61=FACE_OUTER_BOUND('',#86,.T.);
#62=FACE_OUTER_BOUND('',#87,.T.);
#63=FACE_OUTER_BOUND('',#88,.T.);
#64=FACE_OUTER_BOUND('',#89,.T.);
#65=FACE_OUTER_BOUND('',#91,.T.);
#66=FACE_OUTER_BOUND('',#92,.T.);
#67=EDGE_LOOP('',(#176,#177,#178,#179));
#68=EDGE_LOOP('',(#180));
#69=EDGE_LOOP('',(#181));
#70=EDGE_LOOP('',(#182,#183,#184,#185));
#71=EDGE_LOOP('',(#186,#187,#188,#189));
#72=EDGE_LOOP('',(#190));
#73=EDGE_LOOP('',(#191));
#74=EDGE_LOOP('',(#192,#193,#194,#195));
#75=EDGE_LOOP('',(#196));
#76=EDGE_LOOP('',(#197));
#77=EDGE_LOOP('',(#198,#199,#200,#201));
#78=EDGE_LOOP('',(#202,#203,#204,#205));
#79=EDGE_LOOP('',(#206));
#80=EDGE_LOOP('',(#207));
#81=EDGE_LOOP('',(#208,#209,#210,#211));
#82=EDGE_LOOP('',(#212,#213,#214,#215));
#83=EDGE_LOOP('',(#216,#217,#218,#219));
#84=EDGE_LOOP('',(#220));
#85=EDGE_LOOP('',(#221));
#86=EDGE_LOOP('',(#222,#223,#224,#225));
#87=EDGE_LOOP('',(#226,#227,#228,#229));
#88=EDGE_LOOP('',(#230,#231,#232,#233));
#89=EDGE_LOOP('',(#234));
#90=EDGE_LOOP('',(#235));
#91=EDGE_LOOP('',(#236,#237,#238,#239));
#92=EDGE_LOOP('',(#240,#241,#242,#243));
#93=CIRCLE('',#288,56.0000009089708);
#94=CIRCLE('',#289,3.5);
#95=CIRCLE('',#290,52.5000009089708);
#96=CIRCLE('',#292,23.5511778571286);
#97=CIRCLE('',#294,4.50000000000002);
#98=CIRCLE('',#295,19.0759033189822);
#99=CIRCLE('',#297,17.5);
#100=CIRCLE('',#299,7.6);
#101=CIRCLE('',#301,7.6);
#102=CIRCLE('',#303,17.5);
#103=CIRCLE('',#305,19.0759033189822);
#104=CIRCLE('',#307,4.50000000000001);
#105=CIRCLE('',#308,23.5511778571286);
#106=CIRCLE('',#310,52.5000009089708);
#107=CIRCLE('',#312,3.5);
#108=CIRCLE('',#313,56.0000009089708);
#109=CIRCLE('',#315,56.0000009089708);
#110=CIRCLE('',#317,57.0000009067387);
#111=CIRCLE('',#318,0.999999999999988);
#112=CIRCLE('',#320,60.1467891905601);
#113=CIRCLE('',#322,61.1349015502981);
#114=CIRCLE('',#323,0.999999999999994);
#115=CIRCLE('',#324,61.1349015499992);
#116=CIRCLE('',#325,114.833403711146);
#117=CIRCLE('',#327,60.1467891924959);
#118=CIRCLE('',#328,0.99999999999997);
#119=CIRCLE('',#330,57.0000009089708);
#120=CIRCLE('',#332,56.0000009089708);
#121=CIRCLE('',#333,0.999999999999996);
#122=VERTEX_POINT('',#446);
#123=VERTEX_POINT('',#448);
#124=VERTEX_POINT('',#452);
#125=VERTEX_POINT('',#455);
#126=VERTEX_POINT('',#459);
#127=VERTEX_POINT('',#463);
#128=VERTEX_POINT('',#466);
#129=VERTEX_POINT('',#470);
#130=VERTEX_POINT('',#473);
#131=VERTEX_POINT('',#477);
#132=VERTEX_POINT('',#481);
#133=VERTEX_POINT('',#484);
#134=VERTEX_POINT('',#488);
#135=VERTEX_POINT('',#492);
#136=VERTEX_POINT('',#496);
#137=VERTEX_POINT('',#499);
#138=VERTEX_POINT('',#529);
#139=VERTEX_POINT('',#533);
#140=VERTEX_POINT('',#537);
#141=VERTEX_POINT('',#540);
#142=EDGE_CURVE('',#122,#122,#93,.T.);
#143=EDGE_CURVE('',#122,#123,#94,.T.);
#144=EDGE_CURVE('',#123,#123,#95,.T.);
#145=EDGE_CURVE('',#124,#124,#96,.T.);
#146=EDGE_CURVE('',#124,#125,#97,.T.);
#147=EDGE_CURVE('',#125,#125,#98,.T.);
#148=EDGE_CURVE('',#126,#126,#99,.T.);
#149=EDGE_CURVE('',#126,#125,#23,.T.);
#150=EDGE_CURVE('',#127,#127,#100,.T.);
#151=EDGE_CURVE('',#127,#128,#24,.T.);
#152=EDGE_CURVE('',#128,#128,#101,.T.);
#153=EDGE_CURVE('',#129,#129,#102,.T.);
#154=EDGE_CURVE('',#130,#130,#103,.T.);
#155=EDGE_CURVE('',#130,#129,#25,.T.);
#156=EDGE_CURVE('',#130,#131,#104,.T.);
#157=EDGE_CURVE('',#131,#131,#105,.T.);
#158=EDGE_CURVE('',#132,#132,#106,.T.);
#159=EDGE_CURVE('',#132,#133,#107,.T.);
#160=EDGE_CURVE('',#133,#133,#108,.T.);
#161=EDGE_CURVE('',#133,#134,#26,.T.);
#162=EDGE_CURVE('',#134,#134,#109,.T.);
#163=EDGE_CURVE('',#135,#135,#110,.T.);
#164=EDGE_CURVE('',#135,#134,#111,.T.);
#165=EDGE_CURVE('',#136,#136,#112,.T.);
#166=EDGE_CURVE('',#137,#137,#113,.T.);
#167=EDGE_CURVE('',#137,#136,#114,.T.);
#168=EDGE_CURVE('',#138,#138,#115,.T.);
#169=EDGE_CURVE('',#138,#137,#116,.T.);
#170=EDGE_CURVE('',#139,#139,#117,.T.);
#171=EDGE_CURVE('',#139,#138,#118,.T.);
#172=EDGE_CURVE('',#140,#140,#119,.T.);
#173=EDGE_CURVE('',#141,#141,#120,.T.);
#174=EDGE_CURVE('',#141,#140,#121,.T.);
#175=EDGE_CURVE('',#141,#122,#27,.T.);
#176=ORIENTED_EDGE('',*,*,#142,.T.);
#177=ORIENTED_EDGE('',*,*,#143,.T.);
#178=ORIENTED_EDGE('',*,*,#144,.F.);
#179=ORIENTED_EDGE('',*,*,#143,.F.);
#180=ORIENTED_EDGE('',*,*,#144,.T.);
#181=ORIENTED_EDGE('',*,*,#145,.F.);
#182=ORIENTED_EDGE('',*,*,#145,.T.);
#183=ORIENTED_EDGE('',*,*,#146,.T.);
#184=ORIENTED_EDGE('',*,*,#147,.F.);
#185=ORIENTED_EDGE('',*,*,#146,.F.);
#186=ORIENTED_EDGE('',*,*,#148,.F.);
#187=ORIENTED_EDGE('',*,*,#149,.T.);
#188=ORIENTED_EDGE('',*,*,#147,.T.);
#189=ORIENTED_EDGE('',*,*,#149,.F.);
#190=ORIENTED_EDGE('',*,*,#148,.T.);
#191=ORIENTED_EDGE('',*,*,#150,.F.);
#192=ORIENTED_EDGE('',*,*,#150,.T.);
#193=ORIENTED_EDGE('',*,*,#151,.T.);
#194=ORIENTED_EDGE('',*,*,#152,.F.);
#195=ORIENTED_EDGE('',*,*,#151,.F.);
#196=ORIENTED_EDGE('',*,*,#153,.F.);
#197=ORIENTED_EDGE('',*,*,#152,.T.);
#198=ORIENTED_EDGE('',*,*,#154,.F.);
#199=ORIENTED_EDGE('',*,*,#155,.T.);
#200=ORIENTED_EDGE('',*,*,#153,.T.);
#201=ORIENTED_EDGE('',*,*,#155,.F.);
#202=ORIENTED_EDGE('',*,*,#154,.T.);
#203=ORIENTED_EDGE('',*,*,#156,.T.);
#204=ORIENTED_EDGE('',*,*,#157,.F.);
#205=ORIENTED_EDGE('',*,*,#156,.F.);
#206=ORIENTED_EDGE('',*,*,#158,.F.);
#207=ORIENTED_EDGE('',*,*,#157,.T.);
#208=ORIENTED_EDGE('',*,*,#158,.T.);
#209=ORIENTED_EDGE('',*,*,#159,.T.);
#210=ORIENTED_EDGE('',*,*,#160,.F.);
#211=ORIENTED_EDGE('',*,*,#159,.F.);
#212=ORIENTED_EDGE('',*,*,#160,.T.);
#213=ORIENTED_EDGE('',*,*,#161,.T.);
#214=ORIENTED_EDGE('',*,*,#162,.F.);
#215=ORIENTED_EDGE('',*,*,#161,.F.);
#216=ORIENTED_EDGE('',*,*,#163,.F.);
#217=ORIENTED_EDGE('',*,*,#164,.T.);
#218=ORIENTED_EDGE('',*,*,#162,.T.);
#219=ORIENTED_EDGE('',*,*,#164,.F.);
#220=ORIENTED_EDGE('',*,*,#165,.F.);
#221=ORIENTED_EDGE('',*,*,#163,.T.);
#222=ORIENTED_EDGE('',*,*,#166,.F.);
#223=ORIENTED_EDGE('',*,*,#167,.T.);
#224=ORIENTED_EDGE('',*,*,#165,.T.);
#225=ORIENTED_EDGE('',*,*,#167,.F.);
#226=ORIENTED_EDGE('',*,*,#168,.F.);
#227=ORIENTED_EDGE('',*,*,#169,.T.);
#228=ORIENTED_EDGE('',*,*,#166,.T.);
#229=ORIENTED_EDGE('',*,*,#169,.F.);
#230=ORIENTED_EDGE('',*,*,#170,.F.);
#231=ORIENTED_EDGE('',*,*,#171,.T.);
#232=ORIENTED_EDGE('',*,*,#168,.T.);
#233=ORIENTED_EDGE('',*,*,#171,.F.);
#234=ORIENTED_EDGE('',*,*,#170,.T.);
#235=ORIENTED_EDGE('',*,*,#172,.F.);
#236=ORIENTED_EDGE('',*,*,#173,.F.);
#237=ORIENTED_EDGE('',*,*,#174,.T.);
#238=ORIENTED_EDGE('',*,*,#172,.T.);
#239=ORIENTED_EDGE('',*,*,#174,.F.);
#240=ORIENTED_EDGE('',*,*,#173,.T.);
#241=ORIENTED_EDGE('',*,*,#175,.T.);
#242=ORIENTED_EDGE('',*,*,#142,.F.);
#243=ORIENTED_EDGE('',*,*,#175,.F.);
#244=TOROIDAL_SURFACE('',#287,52.5000009089708,3.5);
#245=TOROIDAL_SURFACE('',#293,23.5511778571286,4.50000000000002);
#246=TOROIDAL_SURFACE('',#306,23.5511778571286,4.50000000000001);
#247=TOROIDAL_SURFACE('',#311,52.5000009089708,3.5);
#248=TOROIDAL_SURFACE('',#316,57.0000009089708,0.999999999999988);
#249=TOROIDAL_SURFACE('',#321,60.1467891927922,0.999999999999994);
#250=TOROIDAL_SURFACE('',#326,60.146789192496,0.99999999999997);
#251=TOROIDAL_SURFACE('',#331,57.0000009089708,0.999999999999996);
#252=ADVANCED_FACE('',(#47),#244,.F.);
#253=ADVANCED_FACE('',(#48,#35),#41,.T.);
#254=ADVANCED_FACE('',(#49),#245,.F.);
#255=ADVANCED_FACE('',(#50),#33,.T.);
#256=ADVANCED_FACE('',(#51,#36),#42,.T.);
#257=ADVANCED_FACE('',(#52),#20,.F.);
#258=ADVANCED_FACE('',(#53,#37),#43,.T.);
#259=ADVANCED_FACE('',(#54),#34,.T.);
#260=ADVANCED_FACE('',(#55),#246,.F.);
#261=ADVANCED_FACE('',(#56,#38),#44,.T.);
#262=ADVANCED_FACE('',(#57),#247,.F.);
#263=ADVANCED_FACE('',(#58),#21,.F.);
#264=ADVANCED_FACE('',(#59),#248,.T.);
#265=ADVANCED_FACE('',(#60,#39),#45,.T.);
#266=ADVANCED_FACE('',(#61),#249,.T.);
#267=ADVANCED_FACE('',(#62),#19,.F.);
#268=ADVANCED_FACE('',(#63),#250,.T.);
#269=ADVANCED_FACE('',(#64,#40),#46,.T.);
#270=ADVANCED_FACE('',(#65),#251,.T.);
#271=ADVANCED_FACE('',(#66),#22,.F.);
#272=CLOSED_SHELL('',(#252,#253,#254,#255,#256,#257,#258,#259,#260,#261,
#262,#263,#264,#265,#266,#267,#268,#269,#270,#271));
#273=DERIVED_UNIT_ELEMENT(#275,1.);
#274=DERIVED_UNIT_ELEMENT(#553,-3.);
#275=(
MASS_UNIT()
NAMED_UNIT(*)
SI_UNIT(.KILO.,.GRAM.)
);
#276=DERIVED_UNIT((#273,#274));
#277=MEASURE_REPRESENTATION_ITEM('density measure',
POSITIVE_RATIO_MEASURE(7850.),#276);
#278=PROPERTY_DEFINITION_REPRESENTATION(#283,#280);
#279=PROPERTY_DEFINITION_REPRESENTATION(#284,#281);
#280=REPRESENTATION('material name',(#282),#550);
#281=REPRESENTATION('density',(#277),#550);
#282=DESCRIPTIVE_REPRESENTATION_ITEM('Steel','Steel');
#283=PROPERTY_DEFINITION('material property','material name',#565);
#284=PROPERTY_DEFINITION('material property','density of part',#565);
#285=AXIS2_PLACEMENT_3D('',#443,#336,#337);
#286=AXIS2_PLACEMENT_3D('',#444,#338,#339);
#287=AXIS2_PLACEMENT_3D('',#445,#340,#341);
#288=AXIS2_PLACEMENT_3D('',#447,#342,#343);
#289=AXIS2_PLACEMENT_3D('',#449,#344,#345);
#290=AXIS2_PLACEMENT_3D('',#450,#346,#347);
#291=AXIS2_PLACEMENT_3D('',#451,#348,#349);
#292=AXIS2_PLACEMENT_3D('',#453,#350,#351);
#293=AXIS2_PLACEMENT_3D('',#454,#352,#353);
#294=AXIS2_PLACEMENT_3D('',#456,#354,#355);
#295=AXIS2_PLACEMENT_3D('',#457,#356,#357);
#296=AXIS2_PLACEMENT_3D('',#458,#358,#359);
#297=AXIS2_PLACEMENT_3D('',#460,#360,#361);
#298=AXIS2_PLACEMENT_3D('',#462,#363,#364);
#299=AXIS2_PLACEMENT_3D('',#464,#365,#366);
#300=AXIS2_PLACEMENT_3D('',#465,#367,#368);
#301=AXIS2_PLACEMENT_3D('',#468,#370,#371);
#302=AXIS2_PLACEMENT_3D('',#469,#372,#373);
#303=AXIS2_PLACEMENT_3D('',#471,#374,#375);
#304=AXIS2_PLACEMENT_3D('',#472,#376,#377);
#305=AXIS2_PLACEMENT_3D('',#474,#378,#379);
#306=AXIS2_PLACEMENT_3D('',#476,#381,#382);
#307=AXIS2_PLACEMENT_3D('',#478,#383,#384);
#308=AXIS2_PLACEMENT_3D('',#479,#385,#386);
#309=AXIS2_PLACEMENT_3D('',#480,#387,#388);
#310=AXIS2_PLACEMENT_3D('',#482,#389,#390);
#311=AXIS2_PLACEMENT_3D('',#483,#391,#392);
#312=AXIS2_PLACEMENT_3D('',#485,#393,#394);
#313=AXIS2_PLACEMENT_3D('',#486,#395,#396);
#314=AXIS2_PLACEMENT_3D('',#487,#397,#398);
#315=AXIS2_PLACEMENT_3D('',#490,#400,#401);
#316=AXIS2_PLACEMENT_3D('',#491,#402,#403);
#317=AXIS2_PLACEMENT_3D('',#493,#404,#405);
#318=AXIS2_PLACEMENT_3D('',#494,#406,#407);
#319=AXIS2_PLACEMENT_3D('',#495,#408,#409);
#320=AXIS2_PLACEMENT_3D('',#497,#410,#411);
#321=AXIS2_PLACEMENT_3D('',#498,#412,#413);
#322=AXIS2_PLACEMENT_3D('',#500,#414,#415);
#323=AXIS2_PLACEMENT_3D('',#501,#416,#417);
#324=AXIS2_PLACEMENT_3D('',#530,#418,#419);
#325=AXIS2_PLACEMENT_3D('',#531,#420,#421);
#326=AXIS2_PLACEMENT_3D('',#532,#422,#423);
#327=AXIS2_PLACEMENT_3D('',#534,#424,#425);
#328=AXIS2_PLACEMENT_3D('',#535,#426,#427);
#329=AXIS2_PLACEMENT_3D('',#536,#428,#429);
#330=AXIS2_PLACEMENT_3D('',#538,#430,#431);
#331=AXIS2_PLACEMENT_3D('',#539,#432,#433);
#332=AXIS2_PLACEMENT_3D('',#541,#434,#435);
#333=AXIS2_PLACEMENT_3D('',#542,#436,#437);
#334=AXIS2_PLACEMENT_3D('',#543,#438,#439);
#335=AXIS2_PLACEMENT_3D('',#545,#441,#442);
#336=DIRECTION('axis',(0.,0.,1.));
#337=DIRECTION('refdir',(1.,0.,0.));
#338=DIRECTION('axis',(0.,0.,1.));
#339=DIRECTION('refdir',(1.,0.,0.));
#340=DIRECTION('center_axis',(0.,1.,0.));
#341=DIRECTION('ref_axis',(0.,0.,1.));
#342=DIRECTION('center_axis',(0.,1.,0.));
#343=DIRECTION('ref_axis',(1.,0.,0.));
#344=DIRECTION('center_axis',(-1.,0.,1.22464679914735E-16));
#345=DIRECTION('ref_axis',(-1.22464679914735E-16,0.,-1.));
#346=DIRECTION('center_axis',(0.,1.,0.));
#347=DIRECTION('ref_axis',(1.,0.,0.));
#348=DIRECTION('center_axis',(0.,1.,0.));
#349=DIRECTION('ref_axis',(0.,0.,1.));
#350=DIRECTION('center_axis',(0.,1.,0.));
#351=DIRECTION('ref_axis',(1.,0.,0.));
#352=DIRECTION('center_axis',(0.,1.,0.));
#353=DIRECTION('ref_axis',(0.,0.,1.));
#354=DIRECTION('center_axis',(-1.,0.,1.22464679914735E-16));
#355=DIRECTION('ref_axis',(-1.22464679914735E-16,0.,-1.));
#356=DIRECTION('center_axis',(0.,1.,0.));
#357=DIRECTION('ref_axis',(1.,0.,0.));
#358=DIRECTION('center_axis',(0.,-1.,0.));
#359=DIRECTION('ref_axis',(0.,0.,1.));
#360=DIRECTION('center_axis',(0.,1.,0.));
#361=DIRECTION('ref_axis',(1.,0.,0.));
#362=DIRECTION('',(-1.28201886279452E-17,-0.994505452921406,-0.104684784518043));
#363=DIRECTION('center_axis',(0.,1.,0.));
#364=DIRECTION('ref_axis',(0.,0.,1.));
#365=DIRECTION('center_axis',(0.,1.,0.));
#366=DIRECTION('ref_axis',(1.,0.,0.));
#367=DIRECTION('center_axis',(0.,1.,0.));
#368=DIRECTION('ref_axis',(0.,0.,1.));
#369=DIRECTION('',(0.,-1.,0.));
#370=DIRECTION('center_axis',(0.,1.,0.));
#371=DIRECTION('ref_axis',(1.,0.,0.));
#372=DIRECTION('center_axis',(0.,-1.,0.));
#373=DIRECTION('ref_axis',(0.,0.,-1.));
#374=DIRECTION('center_axis',(0.,1.,0.));
#375=DIRECTION('ref_axis',(1.,0.,0.));
#376=DIRECTION('center_axis',(0.,1.,0.));
#377=DIRECTION('ref_axis',(0.,0.,1.));
#378=DIRECTION('center_axis',(0.,1.,0.));
#379=DIRECTION('ref_axis',(1.,0.,0.));
#380=DIRECTION('',(1.28201886279452E-17,-0.994505452921406,0.104684784518043));
#381=DIRECTION('center_axis',(0.,1.,0.));
#382=DIRECTION('ref_axis',(0.,0.,1.));
#383=DIRECTION('center_axis',(-1.,0.,1.22464679914735E-16));
#384=DIRECTION('ref_axis',(-1.22464679914735E-16,0.,-1.));
#385=DIRECTION('center_axis',(0.,1.,0.));
#386=DIRECTION('ref_axis',(1.,0.,0.));
#387=DIRECTION('center_axis',(0.,-1.,0.));
#388=DIRECTION('ref_axis',(0.,0.,-1.));
#389=DIRECTION('center_axis',(0.,1.,0.));
#390=DIRECTION('ref_axis',(1.,0.,0.));
#391=DIRECTION('center_axis',(0.,1.,0.));
#392=DIRECTION('ref_axis',(0.,0.,1.));
#393=DIRECTION('center_axis',(-1.,0.,1.22464679914735E-16));
#394=DIRECTION('ref_axis',(-1.22464679914735E-16,0.,-1.));
#395=DIRECTION('center_axis',(0.,1.,0.));
#396=DIRECTION('ref_axis',(1.,0.,0.));
#397=DIRECTION('center_axis',(0.,1.,0.));
#398=DIRECTION('ref_axis',(0.,0.,1.));
#399=DIRECTION('',(0.,-1.,0.));
#400=DIRECTION('center_axis',(0.,1.,0.));
#401=DIRECTION('ref_axis',(1.,0.,0.));
#402=DIRECTION('center_axis',(0.,1.,0.));
#403=DIRECTION('ref_axis',(0.,0.,1.));
#404=DIRECTION('center_axis',(0.,1.,0.));
#405=DIRECTION('ref_axis',(1.,0.,0.));
#406=DIRECTION('center_axis',(-1.,0.,1.22464679914735E-16));
#407=DIRECTION('ref_axis',(-1.22464679914735E-16,0.,-1.));
#408=DIRECTION('center_axis',(0.,-1.,0.));
#409=DIRECTION('ref_axis',(0.,0.,-1.));
#410=DIRECTION('center_axis',(0.,1.,0.));
#411=DIRECTION('ref_axis',(1.,0.,0.));
#412=DIRECTION('center_axis',(0.,1.,0.));
#413=DIRECTION('ref_axis',(0.,0.,1.));
#414=DIRECTION('center_axis',(0.,1.,0.));
#415=DIRECTION('ref_axis',(1.,0.,0.));
#416=DIRECTION('center_axis',(-1.,0.,1.22464679914735E-16));
#417=DIRECTION('ref_axis',(-1.22464679914735E-16,0.,-1.));
#418=DIRECTION('center_axis',(0.,1.,0.));
#419=DIRECTION('ref_axis',(1.,0.,0.));
#420=DIRECTION('center_axis',(-1.,0.,1.22464679914735E-16));
#421=DIRECTION('ref_axis',(-1.22464679914735E-16,0.,-1.));
#422=DIRECTION('center_axis',(0.,1.,0.));
#423=DIRECTION('ref_axis',(0.,0.,1.));
#424=DIRECTION('center_axis',(0.,1.,0.));
#425=DIRECTION('ref_axis',(1.,0.,0.));
#426=DIRECTION('center_axis',(-1.,0.,1.22464679914735E-16));
#427=DIRECTION('ref_axis',(-1.22464679914735E-16,0.,-1.));
#428=DIRECTION('center_axis',(0.,1.,0.));
#429=DIRECTION('ref_axis',(0.,0.,1.));
#430=DIRECTION('center_axis',(0.,1.,0.));
#431=DIRECTION('ref_axis',(1.,0.,0.));
#432=DIRECTION('center_axis',(0.,1.,0.));
#433=DIRECTION('ref_axis',(0.,0.,1.));
#434=DIRECTION('center_axis',(0.,1.,0.));
#435=DIRECTION('ref_axis',(1.,0.,0.));
#436=DIRECTION('center_axis',(-1.,0.,1.22464679914735E-16));
#437=DIRECTION('ref_axis',(-1.22464679914735E-16,0.,-1.));
#438=DIRECTION('center_axis',(0.,1.,0.));
#439=DIRECTION('ref_axis',(0.,0.,1.));
#440=DIRECTION('',(0.,-1.,0.));
#441=DIRECTION('',(0.,0.,1.));
#442=DIRECTION('',(1.,0.,0.));
#443=CARTESIAN_POINT('',(0.,0.,0.));
#444=CARTESIAN_POINT('',(0.,0.,0.));
#445=CARTESIAN_POINT('Origin',(0.,6.49999972432854,0.));
#446=CARTESIAN_POINT('',(-6.858022186542E-15,6.49999972432854,-56.0000009089708));
#447=CARTESIAN_POINT('Origin',(0.,6.49999972432854,0.));
#448=CARTESIAN_POINT('',(-6.42939580684043E-15,2.99999972432854,-52.5000009089708));
#449=CARTESIAN_POINT('Origin',(-6.42939580684043E-15,6.49999972432854,-52.5000009089708));
#450=CARTESIAN_POINT('Origin',(0.,2.99999972432854,0.));
#451=CARTESIAN_POINT('Origin',(0.,2.99999972432854,23.5511778571286));
#452=CARTESIAN_POINT('',(-2.88418745788825E-15,2.99999972432854,-23.5511778571286));
#453=CARTESIAN_POINT('Origin',(0.,2.99999972432854,0.));
#454=CARTESIAN_POINT('Origin',(0.,7.49999972432856,0.));
#455=CARTESIAN_POINT('',(-2.3361243940436E-15,7.02891819399735,-19.0759033189822));
#456=CARTESIAN_POINT('Origin',(-2.88418745788825E-15,7.49999972432856,-23.5511778571286));
#457=CARTESIAN_POINT('Origin',(0.,7.02891819399735,0.));
#458=CARTESIAN_POINT('Origin',(0.,14.5144589591629,0.));
#459=CARTESIAN_POINT('',(-2.14313189850787E-15,21.9999997243285,-17.5));
#460=CARTESIAN_POINT('Origin',(0.,21.9999997243285,0.));
#461=CARTESIAN_POINT('',(-2.23962814627573E-15,14.5144589591629,-18.2879516594911));
#462=CARTESIAN_POINT('Origin',(0.,22.0000003278255,7.6));
#463=CARTESIAN_POINT('',(-9.30731567351989E-16,22.0000003278255,-7.6));
#464=CARTESIAN_POINT('Origin',(0.,22.0000003278255,0.));
#465=CARTESIAN_POINT('Origin',(0.,0.,0.));
#466=CARTESIAN_POINT('',(-9.30731567351989E-16,-22.0000003278255,-7.6));
#467=CARTESIAN_POINT('',(-9.30731567351989E-16,0.,-7.6));
#468=CARTESIAN_POINT('Origin',(0.,-22.0000003278255,0.));
#469=CARTESIAN_POINT('Origin',(0.,-22.,17.5));
#470=CARTESIAN_POINT('',(-2.14313189850787E-15,-22.,-17.5));
#471=CARTESIAN_POINT('Origin',(0.,-22.,0.));
#472=CARTESIAN_POINT('Origin',(0.,-14.5144592348344,0.));
#473=CARTESIAN_POINT('',(-2.3361243940436E-15,-7.02891846966881,-19.0759033189822));
#474=CARTESIAN_POINT('Origin',(0.,-7.02891846966881,0.));
#475=CARTESIAN_POINT('',(-2.23962814627573E-15,-14.5144592348344,-18.2879516594911));
#476=CARTESIAN_POINT('Origin',(0.,-7.50000000000001,0.));
#477=CARTESIAN_POINT('',(-2.88418745788825E-15,-3.,-23.5511778571286));
#478=CARTESIAN_POINT('Origin',(-2.88418745788825E-15,-7.50000000000001,
-23.5511778571286));
#479=CARTESIAN_POINT('Origin',(0.,-3.,0.));
#480=CARTESIAN_POINT('Origin',(0.,-3.,52.5000009089708));
#481=CARTESIAN_POINT('',(-6.42939580684043E-15,-3.,-52.5000009089708));
#482=CARTESIAN_POINT('Origin',(0.,-3.,0.));
#483=CARTESIAN_POINT('Origin',(0.,-6.5,0.));
#484=CARTESIAN_POINT('',(-6.858022186542E-15,-6.49999999999999,-56.0000009089708));
#485=CARTESIAN_POINT('Origin',(-6.42939580684043E-15,-6.5,-52.5000009089708));
#486=CARTESIAN_POINT('Origin',(0.,-6.49999999999999,0.));
#487=CARTESIAN_POINT('Origin',(0.,-12.0000001333714,0.));
#488=CARTESIAN_POINT('',(-6.858022186542E-15,-17.5000002667429,-56.0000009089708));
#489=CARTESIAN_POINT('',(-6.858022186542E-15,-12.0000001333714,-56.0000009089708));
#490=CARTESIAN_POINT('Origin',(0.,-17.5000002667429,0.));
#491=CARTESIAN_POINT('Origin',(0.,-17.5000002667429,0.));
#492=CARTESIAN_POINT('',(-6.98048686618337E-15,-18.5000002667429,-57.0000009067387));
#493=CARTESIAN_POINT('Origin',(0.,-18.5000002667429,0.));
#494=CARTESIAN_POINT('Origin',(-6.98048686645673E-15,-17.5000002667429,
-57.0000009089708));
#495=CARTESIAN_POINT('Origin',(0.,-18.500000273767,60.1467891905601));
#496=CARTESIAN_POINT('',(-7.365857286121E-15,-18.500000273767,-60.1467891905601));
#497=CARTESIAN_POINT('Origin',(0.,-18.500000273767,0.));
#498=CARTESIAN_POINT('Origin',(0.,-17.500000273767,0.));
#499=CARTESIAN_POINT('',(-7.48686614997611E-15,-17.6537337084655,-61.1349015502981));
#500=CARTESIAN_POINT('Origin',(0.,-17.6537337084655,0.));
#501=CARTESIAN_POINT('Origin',(-7.36585728639436E-15,-17.500000273767,-60.1467891927922));
#502=CARTESIAN_POINT('Ctrl Pts',(0.,-17.6537337084655,-61.1349015502981));
#503=CARTESIAN_POINT('Ctrl Pts',(-61.1349015502981,-17.6537337084655,-61.1349015502981));
#504=CARTESIAN_POINT('Ctrl Pts',(-61.1349015502981,-17.6537337084655,0.));
#505=CARTESIAN_POINT('Ctrl Pts',(-61.1349015502981,-17.6537337084655,61.1349015502981));
#506=CARTESIAN_POINT('Ctrl Pts',(0.,-17.6537337084655,61.1349015502981));
#507=CARTESIAN_POINT('Ctrl Pts',(61.1349015502981,-17.6537337084655,61.1349015502981));
#508=CARTESIAN_POINT('Ctrl Pts',(61.1349015502981,-17.6537337084655,0.));
#509=CARTESIAN_POINT('Ctrl Pts',(61.1349015502981,-17.6537337084655,-61.1349015502981));
#510=CARTESIAN_POINT('Ctrl Pts',(0.,-17.6537337084655,-61.1349015502981));
#511=CARTESIAN_POINT('Ctrl Pts',(0.,-1.36851865395471E-7,-63.8815214833451));
#512=CARTESIAN_POINT('Ctrl Pts',(-63.8815214833451,-1.36851865395471E-7,
-63.8815214833451));
#513=CARTESIAN_POINT('Ctrl Pts',(-63.8815214833451,-1.36851865395471E-7,
0.));
#514=CARTESIAN_POINT('Ctrl Pts',(-63.8815214833451,-1.36851865395471E-7,
63.8815214833451));
#515=CARTESIAN_POINT('Ctrl Pts',(0.,-1.36851865395471E-7,63.8815214833451));
#516=CARTESIAN_POINT('Ctrl Pts',(63.8815214833451,-1.36851865395471E-7,
63.8815214833451));
#517=CARTESIAN_POINT('Ctrl Pts',(63.8815214833451,-1.36851865395471E-7,
0.));
#518=CARTESIAN_POINT('Ctrl Pts',(63.8815214833451,-1.36851865395471E-7,
-63.8815214833451));
#519=CARTESIAN_POINT('Ctrl Pts',(0.,-1.36851865395471E-7,-63.8815214833451));
#520=CARTESIAN_POINT('Ctrl Pts',(0.,17.6537334347152,-61.1349015499992));
#521=CARTESIAN_POINT('Ctrl Pts',(-61.1349015499992,17.6537334347152,-61.1349015499992));
#522=CARTESIAN_POINT('Ctrl Pts',(-61.1349015499992,17.6537334347152,0.));
#523=CARTESIAN_POINT('Ctrl Pts',(-61.1349015499992,17.6537334347152,61.1349015499992));
#524=CARTESIAN_POINT('Ctrl Pts',(0.,17.6537334347152,61.1349015499992));
#525=CARTESIAN_POINT('Ctrl Pts',(61.1349015499992,17.6537334347152,61.1349015499992));
#526=CARTESIAN_POINT('Ctrl Pts',(61.1349015499992,17.6537334347152,0.));
#527=CARTESIAN_POINT('Ctrl Pts',(61.1349015499992,17.6537334347152,-61.1349015499992));
#528=CARTESIAN_POINT('Ctrl Pts',(0.,17.6537334347152,-61.1349015499992));
#529=CARTESIAN_POINT('',(-7.48686614993951E-15,17.6537334347152,-61.1349015499992));
#530=CARTESIAN_POINT('Origin',(0.,17.6537334347152,0.));
#531=CARTESIAN_POINT('Origin',(6.40899353433416E-15,-1.378357694648E-7,
52.3334037111464));
#532=CARTESIAN_POINT('Origin',(0.,17.5,0.));
#533=CARTESIAN_POINT('',(-7.36585728635808E-15,18.5,-60.1467891924959));
#534=CARTESIAN_POINT('Origin',(0.,18.5,0.));
#535=CARTESIAN_POINT('Origin',(-7.36585728635808E-15,17.5,-60.146789192496));
#536=CARTESIAN_POINT('Origin',(0.,18.5,57.0000009089708));
#537=CARTESIAN_POINT('',(-6.98048686645673E-15,18.5,-57.0000009089708));
#538=CARTESIAN_POINT('Origin',(0.,18.5,0.));
#539=CARTESIAN_POINT('Origin',(0.,17.5,0.));
#540=CARTESIAN_POINT('',(-6.858022186542E-15,17.5,-56.0000009089708));
#541=CARTESIAN_POINT('Origin',(0.,17.5,0.));
#542=CARTESIAN_POINT('Origin',(-6.98048686645673E-15,17.5,-57.0000009089708));
#543=CARTESIAN_POINT('Origin',(0.,11.9999998621643,0.));
#544=CARTESIAN_POINT('',(-6.858022186542E-15,11.9999998621643,-56.0000009089708));
#545=CARTESIAN_POINT('',(0.,0.,0.));
#546=UNCERTAINTY_MEASURE_WITH_UNIT(LENGTH_MEASURE(0.01),#552,
'DISTANCE_ACCURACY_VALUE',
'Maximum model space distance between geometric entities at asserted c
onnectivities');
#547=UNCERTAINTY_MEASURE_WITH_UNIT(LENGTH_MEASURE(0.01),#552,
'DISTANCE_ACCURACY_VALUE',
'Maximum model space distance between geometric entities at asserted c
onnectivities');
#548=UNCERTAINTY_MEASURE_WITH_UNIT(LENGTH_MEASURE(0.01),#552,
'DISTANCE_ACCURACY_VALUE',
'Maximum model space distance between geometric entities at asserted c
onnectivities');
#549=(
GEOMETRIC_REPRESENTATION_CONTEXT(3)
GLOBAL_UNCERTAINTY_ASSIGNED_CONTEXT((#546))
GLOBAL_UNIT_ASSIGNED_CONTEXT((#552,#554,#555))
REPRESENTATION_CONTEXT('','3D')
);
#550=(
GEOMETRIC_REPRESENTATION_CONTEXT(3)
GLOBAL_UNCERTAINTY_ASSIGNED_CONTEXT((#547))
GLOBAL_UNIT_ASSIGNED_CONTEXT((#552,#554,#555))
REPRESENTATION_CONTEXT('','3D')
);
#551=(
GEOMETRIC_REPRESENTATION_CONTEXT(3)
GLOBAL_UNCERTAINTY_ASSIGNED_CONTEXT((#548))
GLOBAL_UNIT_ASSIGNED_CONTEXT((#552,#554,#555))
REPRESENTATION_CONTEXT('','3D')
);
#552=(
LENGTH_UNIT()
NAMED_UNIT(*)
SI_UNIT(.MILLI.,.METRE.)
);
#553=(
LENGTH_UNIT()
NAMED_UNIT(*)
SI_UNIT($,.METRE.)
);
#554=(
NAMED_UNIT(*)
PLANE_ANGLE_UNIT()
SI_UNIT($,.RADIAN.)
);
#555=(
NAMED_UNIT(*)
SI_UNIT($,.STERADIAN.)
SOLID_ANGLE_UNIT()
);
#556=SHAPE_DEFINITION_REPRESENTATION(#558,#561);
#557=SHAPE_DEFINITION_REPRESENTATION(#559,#562);
#558=PRODUCT_DEFINITION_SHAPE('',$,#564);
#559=PRODUCT_DEFINITION_SHAPE('',$,#565);
#560=PRODUCT_DEFINITION_SHAPE($,$,#14);
#561=SHAPE_REPRESENTATION('',(#285,#335),#549);
#562=SHAPE_REPRESENTATION('',(#286),#550);
#563=PRODUCT_DEFINITION_CONTEXT('part definition',#571,'design');
#564=PRODUCT_DEFINITION('BZMH125WPL','BZMH125WPL v2',#566,#563);
#565=PRODUCT_DEFINITION('BZMH125WPL_1','BZMH125WPL',#567,#563);
#566=PRODUCT_DEFINITION_FORMATION('',$,#573);
#567=PRODUCT_DEFINITION_FORMATION('',$,#574);
#568=PRODUCT_RELATED_PRODUCT_CATEGORY('BZMH125WPL v2','BZMH125WPL v2',(#573));
#569=PRODUCT_RELATED_PRODUCT_CATEGORY('BZMH125WPL','BZMH125WPL',(#574));
#570=APPLICATION_PROTOCOL_DEFINITION('international standard',
'ap242_managed_model_based_3d_engineering',2011,#571);
#571=APPLICATION_CONTEXT('Managed model based 3d engineering');
#572=PRODUCT_CONTEXT('part definition',#571,'mechanical');
#573=PRODUCT('BZMH125WPL','BZMH125WPL v2',$,(#572));
#574=PRODUCT('BZMH125WPL_1','BZMH125WPL',$,(#572));
#575=PRESENTATION_STYLE_ASSIGNMENT((#577));
#576=PRESENTATION_STYLE_ASSIGNMENT((#578));
#577=SURFACE_STYLE_USAGE(.BOTH.,#579);
#578=SURFACE_STYLE_USAGE(.BOTH.,#580);
#579=SURFACE_SIDE_STYLE('',(#581));
#580=SURFACE_SIDE_STYLE('',(#582));
#581=SURFACE_STYLE_FILL_AREA(#583);
#582=SURFACE_STYLE_FILL_AREA(#584);
#583=FILL_AREA_STYLE('Steel - Satin',(#585));
#584=FILL_AREA_STYLE('WNY WHEEL',(#586));
#585=FILL_AREA_STYLE_COLOUR('Steel - Satin',#587);
#586=FILL_AREA_STYLE_COLOUR('WNY WHEEL',#588);
#587=COLOUR_RGB('Steel - Satin',0.627450980392157,0.627450980392157,0.627450980392157);
#588=COLOUR_RGB('WNY WHEEL',0.886274509803922,0.92156862745098,0.956862745098039);
ENDSEC;
END-ISO-10303-21;
